  0
SECTION
  2
HEADER
  9
$ACADVER
  1
AC1018
  9
$HANDSEED
  5
FFFFFF
  9
$EXTMAX
 10
8412505.88000000082
 20
5786810.34999999963
 30
1000000.00
  9
$EXTMIN
 10
8412449.88000000082
 20
5786595.29999999981
 30
0.00
  9
$LIMMIN
 10
8412449.88000000082
 20
5786595.29999999981
  9
$LIMMAX
 10
8412505.88000000082
 20
5786810.34999999963
  9
$DIMASZ
 40
2.5
  9
$DIMGAP
 40
0.625
  9
$INSUNITS
 70
6
  9
$DIMEXO
 40
0.625
  9
$DIMTXT
 40
2.5
  9
$DIMSTYLE
  2
Standard
  9
$PLIMMIN
 10
0.0
 20
0.0
  9
$PLIMMAX
 10
210.0
 20
297.0
  9
$DIMEXE
 40
1.25
  9
$TEXTSIZE
 40
2.5
  9
$TEXTSTYLE
  7
Standard
  9
$LWDISPLAY
290
1
  9
$TDCREATE
 40
43511.423940521
  9
$TDUCREATE
 40
43511.382273854
  9
$TDUPDATE
 40
43511.423940521
  9
$TDUUPDATE
 40
43511.382273854
  9
$TDINDWG
 40
0.0
  9
$TDUSRTIMER
 40
0.0
  9
$USRTIMER
 70
1
  0
ENDSEC
  0
SECTION
  2
TABLES
  0
TABLE
  2
VPORT
  5
1
100
AcDbSymbolTable
 70
1
  0
VPORT
  5
2
100
AcDbSymbolTableRecord
100
AcDbViewportTableRecord
  2
*ACTIVE
 70
0
 10
0.0
 20
0.0
 11
1.0
 21
1.0
 12
8412477.88
 22
5786702.82
 13
0.0
 23
0.0
 14
1.0
 24
1.0
 15
0.0
 25
0.0
 16
0.0
 26
0.0
 36
1.0
 17
0.0
 27
0.0
 37
0.0
 40
215.05
 41
0.26
 42
50.0
 43
0.0
 44
0.0
 50
0.0
 51
0.0
 71
0
 72
100
 73
1
 74
1
 75
0
 76
0
 77
0
 78
0
  0
ENDTAB
  0
TABLE
  2
LTYPE
  5
3
100
AcDbSymbolTable
 70
385
  0
LTYPE
  5
4
100
AcDbSymbolTableRecord
100
AcDbLinetypeTableRecord
  2
ByBlock
 70
0
  3

 72
65
 73
0
 40
0.0
  0
LTYPE
  5
5
100
AcDbSymbolTableRecord
100
AcDbLinetypeTableRecord
  2
ByLayer
 70
0
  3

 72
65
 73
0
 40
0.0
  0
LTYPE
  5
6
100
AcDbSymbolTableRecord
100
AcDbLinetypeTableRecord
  2
CONTINUOUS
 70
0
  3
Solid line
 72
65
 73
0
 40
0.0
  0
LTYPE
  5
7
100
AcDbSymbolTableRecord
100
AcDbLinetypeTableRecord
  2
L_0_02
 70
0
  3
Dzialka_ewidencyjna
 72
65
 73
0
 40
0.0
  0
LTYPE
  5
9
100
AcDbSymbolTableRecord
100
AcDbLinetypeTableRecord
  2
L_0_02_M
 70
0
  3
Dzialka_ewidencyjna (MLineStyle)
 72
65
 73
0
 40
0.0
  0
LTYPE
  5
A
100
AcDbSymbolTableRecord
100
AcDbLinetypeTableRecord
  2
L_0_03
 70
0
  3
Uzytek_gruntowy
 72
65
 73
2
 40
0.59999999999999998
 49
0.29999999999999999
 74
0
 49
-0.29999999999999999
 74
0
  0
LTYPE
  5
B
100
AcDbSymbolTableRecord
100
AcDbLinetypeTableRecord
  2
L_0_04
 70
0
  3
Budynek_projektowany
 72
65
 73
2
 40
0.89999999999999991
 49
0.59999999999999998
 74
0
 49
-0.29999999999999999
 74
0
  0
LTYPE
  5
C
100
AcDbSymbolTableRecord
100
AcDbLinetypeTableRecord
  2
L_0_05
 70
0
  3
Szczyt_skarpy_nie_umocnionej_Podnoze_skarpy
 72
65
 73
2
 40
1.05000000000000004
 49
0.75
 74
0
 49
-0.29999999999999999
 74
0
  0
LTYPE
  5
D
100
AcDbSymbolTableRecord
100
AcDbLinetypeTableRecord
  2
L_0_06
 70
0
  3
Granica_konturu_klasyfikacyjnego_Krawedz_chodnika
 72
65
 73
2
 40
1.19999999999999996
 49
0.89999999999999991
 74
0
 49
-0.29999999999999999
 74
0
  0
LTYPE
  5
E
100
AcDbSymbolTableRecord
100
AcDbLinetypeTableRecord
  2
L_0_07
 70
0
  3
Granica_obwodu_spisowego
 72
65
 73
6
 40
1.34999999999999987
 49
0.44999999999999996
 74
0
 49
-0.29999999999999999
 74
0
 49
0.0
 74
0
 49
-0.29999999999999999
 74
0
 49
0.0
 74
0
 49
-0.29999999999999999
 74
0
  0
LTYPE
  5
F
100
AcDbSymbolTableRecord
100
AcDbLinetypeTableRecord
  2
L_0_08
 70
0
  3
Obreb_ewidencyjny
 72
65
 73
2
 40
1.5
 49
0.89999999999999991
 74
0
 49
-0.59999999999999998
 74
0
  0
LTYPE
  5
10
100
AcDbSymbolTableRecord
100
AcDbLinetypeTableRecord
  2
L_0_09
 70
0
  3
Obrys_budynku_ognioodpornego_Obrys_budynku_nieognioodp___0_18__0_18__0_18__0_13_
 72
65
 73
2
 40
1.5
 49
1.19999999999999996
 74
0
 49
-0.29999999999999999
 74
0
  0
LTYPE
  5
11
100
AcDbSymbolTableRecord
100
AcDbLinetypeTableRecord
  2
L_0_0A
 70
0
  3
Gmina
 72
65
 73
4
 40
1.5
 49
0.89999999999999991
 74
0
 49
-0.29999999999999999
 74
0
 49
0.0
 74
0
 49
-0.29999999999999999
 74
0
  0
LTYPE
  5
12
100
AcDbSymbolTableRecord
100
AcDbLinetypeTableRecord
  2
L_0_0B
 70
0
  3
Granica_rejonu_urbanistycznego___________________________________________________Granica_bloku_zabudowy__0_35__0_35__0_35__0_35_
 72
65
 73
6
 40
1.5
 49
0.59999999999999998
 74
0
 49
-0.29999999999999999
 74
0
 49
0.0
 74
0
 49
-0.29999999999999999
 74
0
 49
0.0
 74
0
 49
-0.29999999999999999
 74
0
  0
LTYPE
  5
13
100
AcDbSymbolTableRecord
100
AcDbLinetypeTableRecord
  2
L_0_0C
 70
0
  3
Budynek_w_ruinie_Warstwica_pomocnicza
 72
65
 73
2
 40
1.79999999999999982
 49
1.19999999999999996
 74
0
 49
-0.59999999999999998
 74
0
  0
LTYPE
  5
14
100
AcDbSymbolTableRecord
100
AcDbLinetypeTableRecord
  2
L_0_0D
 70
0
  3
Powiat
 72
65
 73
4
 40
1.79999999999999982
 49
1.19999999999999996
 74
0
 49
-0.29999999999999999
 74
0
 49
0.0
 74
0
 49
-0.29999999999999999
 74
0
  0
LTYPE
  5
15
100
AcDbSymbolTableRecord
100
AcDbLinetypeTableRecord
  2
L_0_0E
 70
0
  3
Panstwo
 72
65
 73
4
 40
2.10000000000000009
 49
1.19999999999999996
 74
0
 49
-0.44999999999999996
 74
0
 49
0.0
 74
0
 49
-0.44999999999999996
 74
0
  0
LTYPE
  5
16
100
AcDbSymbolTableRecord
100
AcDbLinetypeTableRecord
  2
L_0_0F
 70
0
  3
Granica_rejonu_spisowego
 72
65
 73
6
 40
2.10000000000000009
 49
0.59999999999999998
 74
0
 49
-0.29999999999999999
 74
0
 49
0.59999999999999998
 74
0
 49
-0.29999999999999999
 74
0
 49
0.0
 74
0
 49
-0.29999999999999999
 74
0
  0
LTYPE
  5
17
100
AcDbSymbolTableRecord
100
AcDbLinetypeTableRecord
  2
L_0_10
 70
0
  3
Wojewodztwo
 72
65
 73
6
 40
2.10000000000000009
 49
0.89999999999999991
 74
0
 49
-0.38999999999999996
 74
0
 49
0.0
 74
0
 49
-0.4200000000000001
 74
0
 49
0.0
 74
0
 49
-0.38999999999999996
 74
0
  0
LTYPE
  5
18
100
AcDbSymbolTableRecord
100
AcDbLinetypeTableRecord
  2
L_0_12
 70
0
  3
Tor_kolejowy_waski_os_
 72
65
 73
11
 40
6.0
 49
0.29999999999999999
 74
0
 49
0.59999999999999998
 74
0
 49
0.59999999999999998
 74
0
 49
0.59999999999999998
 74
0
 49
0.59999999999999998
 74
0
 49
0.59999999999999998
 74
4
 75
1
340
19
 46
0.03
 50
0.0
 44
0.0
 45
0.0
 49
0.59999999999999998
 74
0
 49
0.59999999999999998
 74
0
 49
0.59999999999999998
 74
0
 49
0.59999999999999998
 74
0
 49
0.29999999999999999
 74
0
  0
LTYPE
  5
1A
100
AcDbSymbolTableRecord
100
AcDbLinetypeTableRecord
  2
L_0_13
 70
0
  3
Hamulce_torowe
 72
65
 73
1
 40
1.0
 49
-1.0
 74
0
  0
LTYPE
  5
1C
100
AcDbSymbolTableRecord
100
AcDbLinetypeTableRecord
  2
L_0_13_M
 70
0
  3
Hamulce_torowe (MLineStyle)
 72
65
 73
0
 40
0.0
  0
LTYPE
  5
1D
100
AcDbSymbolTableRecord
100
AcDbLinetypeTableRecord
  2
L_0_14
 70
0
  3
Zywoplot
 72
65
 73
7
 40
1.5
 49
0.0
 74
0
 49
-0.14999999999999999
 74
4
 75
2
340
19
 46
0.03
 50
0.0
 44
0.0
 45
0.0
 49
-0.29999999999999999
 74
4
 75
3
340
19
 46
0.03
 50
0.0
 44
0.0
 45
0.0
 49
-0.29999999999999999
 74
4
 75
4
340
19
 46
0.03
 50
0.0
 44
0.0
 45
0.0
 49
-0.29999999999999999
 74
4
 75
5
340
19
 46
0.03
 50
0.0
 44
0.0
 45
0.0
 49
-0.29999999999999999
 74
4
 75
6
340
19
 46
0.03
 50
0.0
 44
0.0
 45
0.0
 49
-0.14999999999999999
 74
0
  0
LTYPE
  5
1E
100
AcDbSymbolTableRecord
100
AcDbLinetypeTableRecord
  2
L_0_15
 70
0
  3
Ogrodzenie_trwale
 72
65
 73
11
 40
4.5
 49
0.22500000000000001
 74
0
 49
0.45000000000000001
 74
0
 49
0.45000000000000001
 74
0
 49
0.45000000000000001
 74
0
 49
0.45000000000000001
 74
0
 49
0.45000000000000001
 74
4
 75
7
340
19
 46
0.03
 50
0.0
 44
0.0
 45
0.0
 49
0.45000000000000001
 74
0
 49
0.45000000000000001
 74
0
 49
0.45000000000000001
 74
0
 49
0.45000000000000001
 74
0
 49
0.22500000000000001
 74
0
  0
ENDTAB
  0
TABLE
  2
LAYER
  5
1F
100
AcDbSymbolTable
 70
4
  0
LAYER
  5
20
100
AcDbSymbolTableRecord
100
AcDbLayerTableRecord
  2
0
 70
0
420
0
  6
CONTINUOUS
370
18
390
21
  0
LAYER
  5
22
100
AcDbSymbolTableRecord
100
AcDbLayerTableRecord
  2
czolowki
 70
0
420
0
  6
CONTINUOUS
370
18
390
21
  0
LAYER
  5
23
100
AcDbSymbolTableRecord
100
AcDbLayerTableRecord
  2
projekt_kraweznik_SD
 70
0
420
65280
  6
CONTINUOUS
370
35
390
21
  0
LAYER
  5
24
100
AcDbSymbolTableRecord
100
AcDbLayerTableRecord
  2
tyl_kraw
 70
0
420
0
  6
CONTINUOUS
370
18
390
21
  0
ENDTAB
  0
TABLE
  2
STYLE
  5
25
100
AcDbSymbolTable
 70
2
  0
STYLE
  5
26
100
AcDbSymbolTableRecord
100
AcDbTextStyleTableRecord
  2
STANDARD
 70
0
 40
0.0
 41
1.0
 50
0.0
 71
0
  3
simplex.shx
  4

  0
STYLE
  5
19
100
AcDbSymbolTableRecord
100
AcDbTextStyleTableRecord
  2

 70
1
 40
0.0
 41
0.030
 50
0.0
 71
0
  3
parking+chodnik-do wytyczenia.shx
  4

  0
ENDTAB
  0
TABLE
  2
VIEW
  5
27
100
AcDbSymbolTable
 70
0
  0
ENDTAB
  0
TABLE
  2
UCS
  5
28
100
AcDbSymbolTable
 70
0
  0
ENDTAB
  0
TABLE
  2
APPID
  5
29
100
AcDbSymbolTable
 70
1
  0
APPID
  5
2A
100
AcDbSymbolTableRecord
100
AcDbRegAppTableRecord
  2
ACAD
 70
0
  0
ENDTAB
  0
TABLE
  2
DIMSTYLE
  5
2B
100
AcDbSymbolTable
 70
1
100
AcDbDimStyleTable
  0
DIMSTYLE
105
2C
100
AcDbSymbolTableRecord
100
AcDbDimStyleTableRecord
  2
Standard
 70
0
340
26
  0
ENDTAB
  0
TABLE
  2
BLOCK_RECORD
  5
2D
100
AcDbSymbolTable
 70
4
  0
BLOCK_RECORD
  5
2E
100
AcDbSymbolTableRecord
100
AcDbBlockTableRecord
  2
*Model_Space
340
2F
  0
BLOCK_RECORD
  5
30
100
AcDbSymbolTableRecord
100
AcDbBlockTableRecord
  2
*Paper_Space
340
31
  0
BLOCK_RECORD
  5
32
100
AcDbSymbolTableRecord
100
AcDbBlockTableRecord
  2
L_0_02_1
340
33
  0
BLOCK_RECORD
  5
34
100
AcDbSymbolTableRecord
100
AcDbBlockTableRecord
  2
L_0_02_2
340
35
  0
ENDTAB
  0
ENDSEC
  0
SECTION
  2
BLOCKS
  0
BLOCK
  5
36
100
AcDbEntity
  8
0
100
AcDbBlockBegin
  2
*Model_Space
 70
0
 10
0.0
 20
0.0
 30
0.0
  3
*Model_Space
  1

  0
ENDBLK
  5
37
100
AcDbEntity
  8
0
100
AcDbBlockEnd
  0
BLOCK
  5
38
100
AcDbEntity
 67
1
  8
0
100
AcDbBlockBegin
  2
*Paper_Space
 70
0
 10
0.0
 20
0.0
 30
0.0
  3
*Paper_Space
  1

  0
ENDBLK
  5
39
100
AcDbEntity
 67
1
  8
0
100
AcDbBlockEnd
  0
BLOCK
  5
33
100
AcDbEntity
  8
0
100
AcDbBlockBegin
 62
0
370
13
  2
L_0_02_1
 70
0
 10
0
 20
0
 30
0
  3
L_0_02_1
  0
POINT
  5
3A
100
AcDbEntity
  8
0
100
AcDbPoint
 62
0
 10
0.0
 20
0.0
 30
0.000
  0
ENDBLK
  5
3B
100
AcDbEntity
  8
0
100
AcDbBlockEnd
  0
BLOCK
  5
35
100
AcDbEntity
  8
0
100
AcDbBlockBegin
 62
0
370
13
  2
L_0_02_2
 70
0
 10
0
 20
0
 30
0
  3
L_0_02_2
  0
POINT
  5
3C
100
AcDbEntity
  8
0
100
AcDbPoint
 62
0
 10
-0.0
 20
-0.0
 30
0.000
  0
ENDBLK
  5
3D
100
AcDbEntity
  8
0
100
AcDbBlockEnd
  0
ENDSEC
  0
SECTION
  2
ENTITIES
  0
ARC
  5
3E
100
AcDbEntity
  8
projekt_kraweznik_SD
  6
CONTINUOUS
370
35
100
AcDbCircle
 10
8412493.1873702630
 20
5786744.7756942669
 30
0
 40
7.9989408898
100
AcDbArc
 50
172.3324843435
 51
259.6343838013
  0
ARC
  5
3F
100
AcDbEntity
  8
projekt_kraweznik_SD
  6
CONTINUOUS
370
35
100
AcDbCircle
 10
8412487.8778460939
 20
5786723.1690430436
 30
0
 40
8.0817272340
100
AcDbArc
 50
72.7832072748
 51
154.6098281166
  0
ARC
  5
40
100
AcDbEntity
  8
projekt_kraweznik_SD
  6
CONTINUOUS
370
35
100
AcDbCircle
 10
8412476.8283950761
 20
5786703.9139373628
 30
0
 40
1.7499063547
100
AcDbArc
 50
76.4718310108
 51
255.8475498588
  0
ARC
  5
41
100
AcDbEntity
  8
projekt_kraweznik_SD
  6
CONTINUOUS
370
35
100
AcDbCircle
 10
8412505.7092065942
 20
5786802.3477394059
 30
0
 40
8.0030080439
100
AcDbArc
 50
89.1159293519
 51
167.8572215882
  0
ARC
  5
42
100
AcDbEntity
  8
projekt_kraweznik_SD
  6
CONTINUOUS
370
35
100
AcDbCircle
 10
8412467.6068910882
 20
5786641.0779640954
 30
0
 40
7.9997947329
100
AcDbArc
 50
71.0932843444
 51
150.1816655088
  0
ARC
  5
43
100
AcDbEntity
  8
projekt_kraweznik_SD
  6
CONTINUOUS
370
35
100
AcDbCircle
 10
8412465.8417457901
 20
5786661.2501809178
 30
0
 40
1.0048391688
100
AcDbArc
 50
82.9652679152
 51
172.8905627086
  0
ARC
  5
44
100
AcDbEntity
  8
projekt_kraweznik_SD
  6
CONTINUOUS
370
35
100
AcDbCircle
 10
8412472.8484162521
 20
5786661.4929362563
 30
0
 40
8.0019225662
100
AcDbArc
 50
172.6972627799
 51
259.7164771302
  0
ARC
  5
45
100
AcDbEntity
  8
projekt_kraweznik_SD
  6
CONTINUOUS
370
35
100
AcDbCircle
 10
8412457.7207522746
 20
5786602.9640750969
 30
0
 40
8.0010303075
100
AcDbArc
 50
191.4779370040
 51
253.2732526859
  0
POLYLINE
  5
46
100
AcDbEntity
  8
projekt_kraweznik_SD
  6
CONTINUOUS
370
35
100
AcDb3dPolyline
 66
1
 70
136
  0
VERTEX
  5
47
100
AcDbEntity
  8
projekt_kraweznik_SD
100
AcDbVertex
100
AcDb3dPolylineVertex
 10
8412497.8900000006
 20
5786804.03000000026
 70
32
  0
VERTEX
  5
48
100
AcDbEntity
  8
projekt_kraweznik_SD
100
AcDbVertex
100
AcDb3dPolylineVertex
 10
8412495.77999999933
 20
5786791.15000000037
 70
32
  0
VERTEX
  5
49
100
AcDbEntity
  8
projekt_kraweznik_SD
100
AcDbVertex
100
AcDb3dPolylineVertex
 10
8412494.01999999955
 20
5786782.1799999997
 70
32
  0
VERTEX
  5
4A
100
AcDbEntity
  8
projekt_kraweznik_SD
100
AcDbVertex
100
AcDb3dPolylineVertex
 10
8412485.25999999978
 20
5786745.83999999985
 70
32
  0
SEQEND
  5
4B
100
AcDbEntity
  8
projekt_kraweznik_SD
  0
POLYLINE
  5
4C
100
AcDbEntity
  8
projekt_kraweznik_SD
  6
CONTINUOUS
370
35
100
AcDb3dPolyline
 66
1
 70
136
  0
VERTEX
  5
4D
100
AcDbEntity
  8
projekt_kraweznik_SD
100
AcDbVertex
100
AcDb3dPolylineVertex
 10
8412503.78749999963
 20
5786810.11770000029
 70
32
  0
VERTEX
  5
4E
100
AcDbEntity
  8
projekt_kraweznik_SD
100
AcDbVertex
100
AcDb3dPolylineVertex
 10
8412502.94921586849
 20
5786803.35858050548
 70
32
  0
VERTEX
  5
4F
100
AcDbEntity
  8
projekt_kraweznik_SD
100
AcDbVertex
100
AcDb3dPolylineVertex
 10
8412500.29600000009
 20
5786781.02199999988
 70
32
  0
VERTEX
  5
50
100
AcDbEntity
  8
projekt_kraweznik_SD
100
AcDbVertex
100
AcDb3dPolylineVertex
 10
8412491.48287574202
 20
5786744.34426797554
 70
32
  0
VERTEX
  5
51
100
AcDbEntity
  8
projekt_kraweznik_SD
100
AcDbVertex
100
AcDb3dPolylineVertex
 10
8412489.83559999987
 20
5786737.51020000037
 70
32
  0
SEQEND
  5
52
100
AcDbEntity
  8
projekt_kraweznik_SD
  0
POLYLINE
  5
53
100
AcDbEntity
  8
projekt_kraweznik_SD
  6
CONTINUOUS
370
35
100
AcDb3dPolyline
 66
1
 70
136
  0
VERTEX
  5
54
100
AcDbEntity
  8
projekt_kraweznik_SD
100
AcDbVertex
100
AcDb3dPolylineVertex
 10
8412497.88599999994
 20
5786804.03100000042
 70
32
  0
VERTEX
  5
55
100
AcDbEntity
  8
projekt_kraweznik_SD
100
AcDbVertex
100
AcDb3dPolylineVertex
 10
8412502.94921586849
 20
5786803.35858050548
 70
32
  0
SEQEND
  5
56
100
AcDbEntity
  8
projekt_kraweznik_SD
  0
POLYLINE
  5
57
100
AcDbEntity
  8
projekt_kraweznik_SD
  6
CONTINUOUS
370
35
100
AcDb3dPolyline
 66
1
 70
136
  0
VERTEX
  5
58
100
AcDbEntity
  8
projekt_kraweznik_SD
100
AcDbVertex
100
AcDb3dPolylineVertex
 10
8412485.25998582877
 20
5786745.84294238314
 70
32
  0
VERTEX
  5
59
100
AcDbEntity
  8
projekt_kraweznik_SD
100
AcDbVertex
100
AcDb3dPolylineVertex
 10
8412491.48287574202
 20
5786744.34426797554
 70
32
  0
SEQEND
  5
5A
100
AcDbEntity
  8
projekt_kraweznik_SD
  0
POLYLINE
  5
5B
100
AcDbEntity
  8
projekt_kraweznik_SD
  6
CONTINUOUS
370
35
100
AcDb3dPolyline
 66
1
 70
136
  0
VERTEX
  5
5C
100
AcDbEntity
  8
projekt_kraweznik_SD
100
AcDbVertex
100
AcDb3dPolylineVertex
 10
8412505.83267835528
 20
5786810.34919197671
 70
32
  0
VERTEX
  5
5D
100
AcDbEntity
  8
projekt_kraweznik_SD
100
AcDbVertex
100
AcDb3dPolylineVertex
 10
8412504.93481084332
 20
5786803.11370340455
 70
32
  0
VERTEX
  5
5E
100
AcDbEntity
  8
projekt_kraweznik_SD
100
AcDbVertex
100
AcDb3dPolylineVertex
 10
8412502.29399999976
 20
5786780.78799999971
 70
32
  0
VERTEX
  5
5F
100
AcDbEntity
  8
projekt_kraweznik_SD
100
AcDbVertex
100
AcDb3dPolylineVertex
 10
8412493.42466298491
 20
5786743.87278918363
 70
32
  0
VERTEX
  5
60
100
AcDbEntity
  8
projekt_kraweznik_SD
100
AcDbVertex
100
AcDb3dPolylineVertex
 10
8412491.74801769853
 20
5786736.90668547154
 70
32
  0
SEQEND
  5
61
100
AcDbEntity
  8
projekt_kraweznik_SD
  0
POLYLINE
  5
62
100
AcDbEntity
  8
projekt_kraweznik_SD
  6
CONTINUOUS
370
35
100
AcDb3dPolyline
 66
1
 70
136
  0
VERTEX
  5
63
100
AcDbEntity
  8
projekt_kraweznik_SD
100
AcDbVertex
100
AcDb3dPolylineVertex
 10
8412480.57679999992
 20
5786726.63430000097
 70
32
  0
VERTEX
  5
64
100
AcDbEntity
  8
projekt_kraweznik_SD
100
AcDbVertex
100
AcDb3dPolylineVertex
 10
8412475.13020000048
 20
5786704.33620000072
 70
32
  0
VERTEX
  5
65
100
AcDbEntity
  8
projekt_kraweznik_SD
100
AcDbVertex
100
AcDb3dPolylineVertex
 10
8412464.91200000048
 20
5786662.51000000071
 70
32
  0
SEQEND
  5
66
100
AcDbEntity
  8
projekt_kraweznik_SD
  0
POLYLINE
  5
67
100
AcDbEntity
  8
projekt_kraweznik_SD
  6
CONTINUOUS
370
35
100
AcDb3dPolyline
 66
1
 70
136
  0
VERTEX
  5
68
100
AcDbEntity
  8
projekt_kraweznik_SD
100
AcDbVertex
100
AcDb3dPolylineVertex
 10
8412476.4002612941
 20
5786702.21604517661
 70
32
  0
VERTEX
  5
69
100
AcDbEntity
  8
projekt_kraweznik_SD
100
AcDbVertex
100
AcDb3dPolylineVertex
 10
8412480.91999999993
 20
5786701.08000000007
 70
32
  0
SEQEND
  5
6A
100
AcDbEntity
  8
projekt_kraweznik_SD
  0
POLYLINE
  5
6B
100
AcDbEntity
  8
projekt_kraweznik_SD
  6
CONTINUOUS
370
35
100
AcDb3dPolyline
 66
1
 70
136
  0
VERTEX
  5
6C
100
AcDbEntity
  8
projekt_kraweznik_SD
100
AcDbVertex
100
AcDb3dPolylineVertex
 10
8412477.2375489492
 20
5786705.61450226326
 70
32
  0
VERTEX
  5
6D
100
AcDbEntity
  8
projekt_kraweznik_SD
100
AcDbVertex
100
AcDb3dPolylineVertex
 10
8412481.75699999928
 20
5786704.48699999973
 70
32
  0
SEQEND
  5
6E
100
AcDbEntity
  8
projekt_kraweznik_SD
  0
POLYLINE
  5
6F
100
AcDbEntity
  8
projekt_kraweznik_SD
  6
CONTINUOUS
370
35
100
AcDb3dPolyline
 66
1
 70
136
  0
VERTEX
  5
70
100
AcDbEntity
  8
projekt_kraweznik_SD
100
AcDbVertex
100
AcDb3dPolylineVertex
 10
8412465.96499999985
 20
5786662.24899999984
 70
32
  0
VERTEX
  5
71
100
AcDbEntity
  8
projekt_kraweznik_SD
100
AcDbVertex
100
AcDb3dPolylineVertex
 10
8412471.12702202052
 20
5786660.99011923
 70
32
  0
SEQEND
  5
72
100
AcDbEntity
  8
projekt_kraweznik_SD
  0
POLYLINE
  5
73
100
AcDbEntity
  8
projekt_kraweznik_SD
  6
CONTINUOUS
370
35
100
AcDb3dPolyline
 66
1
 70
136
  0
VERTEX
  5
74
100
AcDbEntity
  8
projekt_kraweznik_SD
100
AcDbVertex
100
AcDb3dPolylineVertex
 10
8412488.30140000023
 20
5786731.24019999988
 70
32
  0
VERTEX
  5
75
100
AcDbEntity
  8
projekt_kraweznik_SD
100
AcDbVertex
100
AcDb3dPolylineVertex
 10
8412486.79737725109
 20
5786725.11157392897
 70
32
  0
VERTEX
  5
76
100
AcDbEntity
  8
projekt_kraweznik_SD
100
AcDbVertex
100
AcDb3dPolylineVertex
 10
8412481.75699999928
 20
5786704.48699999973
 70
32
  0
VERTEX
  5
77
100
AcDbEntity
  8
projekt_kraweznik_SD
100
AcDbVertex
100
AcDb3dPolylineVertex
 10
8412480.91999999993
 20
5786701.08000000007
 70
32
  0
VERTEX
  5
78
100
AcDbEntity
  8
projekt_kraweznik_SD
100
AcDbVertex
100
AcDb3dPolylineVertex
 10
8412471.12702202052
 20
5786660.99011923
 70
32
  0
VERTEX
  5
79
100
AcDbEntity
  8
projekt_kraweznik_SD
100
AcDbVertex
100
AcDb3dPolylineVertex
 10
8412469.47890000045
 20
5786654.23650000058
 70
32
  0
SEQEND
  5
7A
100
AcDbEntity
  8
projekt_kraweznik_SD
  0
POLYLINE
  5
7B
100
AcDbEntity
  8
projekt_kraweznik_SD
  6
CONTINUOUS
370
35
100
AcDb3dPolyline
 66
1
 70
136
  0
VERTEX
  5
7C
100
AcDbEntity
  8
projekt_kraweznik_SD
100
AcDbVertex
100
AcDb3dPolylineVertex
 10
8412490.26999999955
 20
5786730.88999999966
 70
32
  0
VERTEX
  5
7D
100
AcDbEntity
  8
projekt_kraweznik_SD
100
AcDbVertex
100
AcDb3dPolylineVertex
 10
8412488.74000000022
 20
5786724.63999999966
 70
32
  0
VERTEX
  5
7E
100
AcDbEntity
  8
projekt_kraweznik_SD
100
AcDbVertex
100
AcDb3dPolylineVertex
 10
8412483.34999999963
 20
5786702.5700000003
 70
32
  0
VERTEX
  5
7F
100
AcDbEntity
  8
projekt_kraweznik_SD
100
AcDbVertex
100
AcDb3dPolylineVertex
 10
8412473.0700000003
 20
5786660.51999999955
 70
32
  0
SEQEND
  5
80
100
AcDbEntity
  8
projekt_kraweznik_SD
  0
POLYLINE
  5
81
100
AcDbEntity
  8
projekt_kraweznik_SD
  6
CONTINUOUS
370
35
100
AcDb3dPolyline
 66
1
 70
136
  0
VERTEX
  5
82
100
AcDbEntity
  8
projekt_kraweznik_SD
100
AcDbVertex
100
AcDb3dPolylineVertex
 10
8412460.66599999927
 20
5786645.05599999987
 70
32
  0
VERTEX
  5
83
100
AcDbEntity
  8
projekt_kraweznik_SD
100
AcDbVertex
100
AcDb3dPolylineVertex
 10
8412455.98000000045
 20
5786626.0700000003
 70
32
  0
VERTEX
  5
84
100
AcDbEntity
  8
projekt_kraweznik_SD
100
AcDbVertex
100
AcDb3dPolylineVertex
 10
8412449.88000000082
 20
5786601.37200000044
 70
32
  0
SEQEND
  5
85
100
AcDbEntity
  8
projekt_kraweznik_SD
  0
POLYLINE
  5
86
100
AcDbEntity
  8
projekt_kraweznik_SD
  6
CONTINUOUS
370
35
100
AcDb3dPolyline
 66
1
 70
136
  0
VERTEX
  5
87
100
AcDbEntity
  8
projekt_kraweznik_SD
100
AcDbVertex
100
AcDb3dPolylineVertex
 10
8412468.24799999967
 20
5786649.05300000031
 30
0.000
 70
32
  0
VERTEX
  5
88
100
AcDbEntity
  8
projekt_kraweznik_SD
100
AcDbVertex
100
AcDb3dPolylineVertex
 10
8412466.8834266644
 20
5786643.52548698243
 30
0.000
 70
32
  0
VERTEX
  5
89
100
AcDbEntity
  8
projekt_kraweznik_SD
100
AcDbVertex
100
AcDb3dPolylineVertex
 10
8412462.23300000094
 20
5786624.69600000046
 70
32
  0
VERTEX
  5
8A
100
AcDbEntity
  8
projekt_kraweznik_SD
100
AcDbVertex
100
AcDb3dPolylineVertex
 10
8412456.09342680871
 20
5786599.83548694756
 70
32
  0
VERTEX
  5
8B
100
AcDbEntity
  8
projekt_kraweznik_SD
100
AcDbVertex
100
AcDb3dPolylineVertex
 10
8412455.00600000098
 20
5786595.43800000008
 70
32
  0
SEQEND
  5
8C
100
AcDbEntity
  8
projekt_kraweznik_SD
  0
POLYLINE
  5
8D
100
AcDbEntity
  8
projekt_kraweznik_SD
  6
CONTINUOUS
370
35
100
AcDb3dPolyline
 66
1
 70
136
  0
VERTEX
  5
8E
100
AcDbEntity
  8
projekt_kraweznik_SD
100
AcDbVertex
100
AcDb3dPolylineVertex
 10
8412470.19900000095
 20
5786648.64599999972
 70
32
  0
VERTEX
  5
8F
100
AcDbEntity
  8
projekt_kraweznik_SD
100
AcDbVertex
100
AcDb3dPolylineVertex
 10
8412468.82512249611
 20
5786643.04595166538
 70
32
  0
VERTEX
  5
90
100
AcDbEntity
  8
projekt_kraweznik_SD
100
AcDbVertex
100
AcDb3dPolylineVertex
 10
8412464.18700000085
 20
5786624.31000000052
 70
32
  0
VERTEX
  5
91
100
AcDbEntity
  8
projekt_kraweznik_SD
100
AcDbVertex
100
AcDb3dPolylineVertex
 10
8412461.34999999963
 20
5786612.86000000034
 70
32
  0
VERTEX
  5
92
100
AcDbEntity
  8
projekt_kraweznik_SD
100
AcDbVertex
100
AcDb3dPolylineVertex
 10
8412455.4179999996
 20
5786595.30159999989
 70
32
  0
SEQEND
  5
93
100
AcDbEntity
  8
projekt_kraweznik_SD
  0
POLYLINE
  5
94
100
AcDbEntity
  8
projekt_kraweznik_SD
  6
CONTINUOUS
370
35
100
AcDb3dPolyline
 66
1
 70
136
  0
VERTEX
  5
95
100
AcDbEntity
  8
projekt_kraweznik_SD
100
AcDbVertex
100
AcDb3dPolylineVertex
 10
8412473.07281935588
 20
5786660.51503726561
 70
32
  0
VERTEX
  5
96
100
AcDbEntity
  8
projekt_kraweznik_SD
100
AcDbVertex
100
AcDb3dPolylineVertex
 10
8412471.41999999993
 20
5786653.62000000011
 70
32
  0
SEQEND
  5
97
100
AcDbEntity
  8
projekt_kraweznik_SD
  0
POLYLINE
  5
98
100
AcDbEntity
  8
projekt_kraweznik_SD
  6
CONTINUOUS
370
35
100
AcDb3dPolyline
 66
1
 70
136
  0
VERTEX
  5
99
100
AcDbEntity
  8
projekt_kraweznik_SD
100
AcDbVertex
100
AcDb3dPolylineVertex
 10
8412480.57679999992
 20
5786726.63430000097
 70
32
  0
VERTEX
  5
9A
100
AcDbEntity
  8
projekt_kraweznik_SD
100
AcDbVertex
100
AcDb3dPolylineVertex
 10
8412486.79737725109
 20
5786725.11157392897
 70
32
  0
SEQEND
  5
9B
100
AcDbEntity
  8
projekt_kraweznik_SD
  0
POLYLINE
  5
9C
100
AcDbEntity
  8
projekt_kraweznik_SD
  6
CONTINUOUS
370
35
100
AcDb3dPolyline
 66
1
 70
136
  0
VERTEX
  5
9D
100
AcDbEntity
  8
projekt_kraweznik_SD
100
AcDbVertex
100
AcDb3dPolylineVertex
 10
8412460.66599999927
 20
5786645.05599999987
 70
32
  0
VERTEX
  5
9E
100
AcDbEntity
  8
projekt_kraweznik_SD
100
AcDbVertex
100
AcDb3dPolylineVertex
 10
8412466.8834266644
 20
5786643.52548698243
 30
0.000
 70
32
  0
SEQEND
  5
9F
100
AcDbEntity
  8
projekt_kraweznik_SD
  0
POLYLINE
  5
A0
100
AcDbEntity
  8
projekt_kraweznik_SD
  6
CONTINUOUS
370
35
100
AcDb3dPolyline
 66
1
 70
136
  0
VERTEX
  5
A1
100
AcDbEntity
  8
projekt_kraweznik_SD
100
AcDbVertex
100
AcDb3dPolylineVertex
 10
8412449.88000000082
 20
5786601.37200000044
 70
32
  0
VERTEX
  5
A2
100
AcDbEntity
  8
projekt_kraweznik_SD
100
AcDbVertex
100
AcDb3dPolylineVertex
 10
8412456.09342680871
 20
5786599.83548694756
 70
32
  0
SEQEND
  5
A3
100
AcDbEntity
  8
projekt_kraweznik_SD
  0
POLYLINE
  5
A4
100
AcDbEntity
  8
tyl_kraw
  6
CONTINUOUS
370
18
100
AcDb3dPolyline
 66
1
 70
136
  0
VERTEX
  5
A5
100
AcDbEntity
  8
tyl_kraw
100
AcDbVertex
100
AcDb3dPolylineVertex
 10
8412488.46000000089
 20
5786731.23000000045
 70
32
  0
VERTEX
  5
A6
100
AcDbEntity
  8
tyl_kraw
100
AcDbVertex
100
AcDb3dPolylineVertex
 10
8412486.94999999926
 20
5786725.0700000003
 70
32
  0
VERTEX
  5
A7
100
AcDbEntity
  8
tyl_kraw
100
AcDbVertex
100
AcDb3dPolylineVertex
 10
8412481.91000000015
 20
5786704.45000000019
 70
32
  0
VERTEX
  5
A8
100
AcDbEntity
  8
tyl_kraw
100
AcDbVertex
100
AcDb3dPolylineVertex
 10
8412481.0700000003
 20
5786701.04000000004
 70
32
  0
VERTEX
  5
A9
100
AcDbEntity
  8
tyl_kraw
100
AcDbVertex
100
AcDb3dPolylineVertex
 10
8412471.27999999933
 20
5786660.95000000019
 70
32
  0
VERTEX
  5
AA
100
AcDbEntity
  8
tyl_kraw
100
AcDbVertex
100
AcDb3dPolylineVertex
 10
8412469.61999999918
 20
5786654.16999999993
 70
32
  0
SEQEND
  5
AB
100
AcDbEntity
  8
tyl_kraw
  0
POLYLINE
  5
AC
100
AcDbEntity
  8
tyl_kraw
  6
CONTINUOUS
370
18
100
AcDb3dPolyline
 66
1
 70
136
  0
VERTEX
  5
AD
100
AcDbEntity
  8
tyl_kraw
100
AcDbVertex
100
AcDb3dPolylineVertex
 10
8412468.40000000037
 20
5786649.04000000004
 70
32
  0
VERTEX
  5
AE
100
AcDbEntity
  8
tyl_kraw
100
AcDbVertex
100
AcDb3dPolylineVertex
 10
8412467.02999999933
 20
5786643.49000000022
 70
32
  0
VERTEX
  5
AF
100
AcDbEntity
  8
tyl_kraw
100
AcDbVertex
100
AcDb3dPolylineVertex
 10
8412462.38000000082
 20
5786624.66000000015
 70
32
  0
VERTEX
  5
B0
100
AcDbEntity
  8
tyl_kraw
100
AcDbVertex
100
AcDb3dPolylineVertex
 10
8412456.24000000022
 20
5786599.79999999981
 70
32
  0
VERTEX
  5
B1
100
AcDbEntity
  8
tyl_kraw
100
AcDbVertex
100
AcDb3dPolylineVertex
 10
8412455.15000000037
 20
5786595.38999999966
 70
32
  0
SEQEND
  5
B2
100
AcDbEntity
  8
tyl_kraw
  0
POLYLINE
  5
B3
100
AcDbEntity
  8
tyl_kraw
  6
CONTINUOUS
370
18
100
AcDb3dPolyline
 66
1
 70
136
  0
VERTEX
  5
B4
100
AcDbEntity
  8
tyl_kraw
100
AcDbVertex
100
AcDb3dPolylineVertex
 10
8412503.94999999926
 20
5786810.15000000037
 70
32
  0
VERTEX
  5
B5
100
AcDbEntity
  8
tyl_kraw
100
AcDbVertex
100
AcDb3dPolylineVertex
 10
8412503.09999999963
 20
5786803.33999999985
 70
32
  0
VERTEX
  5
B6
100
AcDbEntity
  8
tyl_kraw
100
AcDbVertex
100
AcDb3dPolylineVertex
 10
8412500.44999999926
 20
5786780.99000000022
 70
32
  0
VERTEX
  5
B7
100
AcDbEntity
  8
tyl_kraw
100
AcDbVertex
100
AcDb3dPolylineVertex
 10
8412491.63000000082
 20
5786744.29999999981
 70
32
  0
VERTEX
  5
B8
100
AcDbEntity
  8
tyl_kraw
100
AcDbVertex
100
AcDb3dPolylineVertex
 10
8412489.98000000045
 20
5786737.45000000019
 70
32
  0
SEQEND
  5
B9
100
AcDbEntity
  8
tyl_kraw
  0
TEXT
  5
BA
100
AcDbEntity
  8
czolowki
370
15
100
AcDbText
 39
0.15
 10
8412499.77035364695
 20
5786803.9318219088
 40
0.45
  1
-5.10-
 50
-7.50
 41
0.66
  7
STANDARD
100
AcDbText
  0
TEXT
  5
BB
100
AcDbEntity
  8
czolowki
370
15
100
AcDbText
 39
0.15
 10
8412503.28912256099
 20
5786803.46841713786
 40
0.45
  1
-2.00-
 50
-7.20
 41
0.66
  7
STANDARD
100
AcDbText
  0
TEXT
  5
BC
100
AcDbEntity
  8
czolowki
370
15
100
AcDbText
 39
0.15
 10
8412503.73835396208
 20
5786794.21966273244
 40
0.45
  1
-30.96-
 50
-277.10
 41
0.66
  7
STANDARD
100
AcDbText
  0
TEXT
  5
BD
100
AcDbEntity
  8
czolowki
370
15
100
AcDbText
 39
0.15
 10
8412496.5986484848
 20
5786757.46526877116
 40
0.45
  1
-44.06-
 50
-283.50
 41
0.66
  7
STANDARD
100
AcDbText
  0
TEXT
  5
BE
100
AcDbEntity
  8
czolowki
370
15
100
AcDbText
 39
0.15
 10
8412470.56158782914
 20
5786650.5009523714
 40
0.45
  1
-5.12-
 50
-283.80
 41
0.66
  7
STANDARD
100
AcDbText
  0
ENDSEC
  0
SECTION
  2
OBJECTS
  0
DICTIONARY
  5
BF
330
0
100
AcDbDictionary
280
0
281
1
  3
ACAD_GROUP
350
C0
  3
ACAD_LAYOUT
350
C1
  3
ACAD_MLINESTYLE
350
C2
  3
ACAD_PLOTSETTINGS
350
C3
  3
ACAD_PLOTSTYLENAME
350
C4
  0
DICTIONARY
  5
C0
102
{ACAD_REACTORS
330
BF
102
}
330
BF
100
AcDbDictionary
280
0
281
1
  0
DICTIONARY
  5
C1
102
{ACAD_REACTORS
330
BF
102
}
330
BF
100
AcDbDictionary
280
0
281
1
  3
Layout
350
31
  3
Model
350
2F
  0
DICTIONARY
  5
C2
102
{ACAD_REACTORS
330
BF
102
}
330
BF
100
AcDbDictionary
280
0
281
1
  3
Standard
350
C5
  3
L_0_02_M
350
8
  3
L_0_13_M
350
1B
  0
DICTIONARY
  5
C3
102
{ACAD_REACTORS
330
BF
102
}
330
BF
100
AcDbDictionary
280
0
281
1
  0
ACDBDICTIONARYWDFLT
  5
C4
102
{ACAD_REACTORS
330
BF
102
}
330
BF
100
AcDbDictionary
281
1
  3
Normal
350
21
100
AcDbDictionaryWithDefault
340
21
  0
LAYOUT
  5
31
100
AcDbPlotSettings
  1

  2

  4

  6

 40
0.0
 41
0.0
 42
0.0
 43
0.0
 44
0.0
 45
0.0
 46
0.0
 47
0.0
 48
0.0
 49
0.0
140
0.0
141
0.0
142
1.0
143
1.0
 70
688
 72
1
 73
0
 74
5
  7

 75
0
147
1.0
148
0.0
149
0.0
100
AcDbLayout
  1
Layout
 70
1
 71
1
 10
0.0
 20
0.0
 11
420.0
 21
297.0
 12
0.0
 22
0.0
 32
0.0
 14
100000000000000000000.0
 24
100000000000000000000.0
 34
100000000000000000000.0
 15
-100000000000000000000.0
 25
-100000000000000000000.0
 35
-100000000000000000000.0
146
0.0
 13
0.0
 23
0.0
 33
0.0
 16
1.0
 26
0.0
 36
0.0
 17
0.0
 27
1.0
 37
0.0
 76
0
330
30
  0
LAYOUT
  5
2F
100
AcDbPlotSettings
  1

  2

  4

  6

 40
0.0
 41
0.0
 42
0.0
 43
0.0
 44
0.0
 45
0.0
 46
0.0
 47
0.0
 48
0.0
 49
0.0
140
0.0
141
0.0
142
1.0
143
1.0
 70
1712
 72
1
 73
0
 74
0
  7

 75
0
147
1.0
148
0.0
149
0.0
100
AcDbLayout
  1
Model
 70
1
 71
0
 10
0.0
 20
0.0
 11
12.0
 21
9.0
 12
0.0
 22
0.0
 32
0.0
 14
0.0
 24
0.0
 34
0.0
 15
0.0
 25
0.0
 35
0.0
146
0.0
 13
0.0
 23
0.0
 33
0.0
 16
1.0
 26
0.0
 36
0.0
 17
0.0
 27
1.0
 37
0.0
 76
0
330
2E
  0
MLINESTYLE
  5
C5
102
{ACAD_REACTORS
330
C2
102
}
330
C2
100
AcDbMlineStyle
  2
Standard
 70
0
  3

 62
256
 51
90.0
 52
90.0
  2
Standard
 71
2
 49
0.5
 62
256
  6
ByLayer
 49
-0.5
 62
256
  6
ByLayer
  0
MLINESTYLE
  5
8
100
AcDbMlineStyle
  2
L_0_02_M
 70
0
  3

 51
90.0
 52
90.0
 71
1
 49
0.0
 62
256
  6
CONTINUOUS
  0
MLINESTYLE
  5
1B
100
AcDbMlineStyle
  2
L_0_13_M
 70
0
  3

 51
90.0
 52
90.0
 71
2
 49
0.29999999999999999
 62
256
  6
CONTINUOUS
 49
-0.29999999999999999
 62
256
  6
CONTINUOUS
  0
ACDBPLACEHOLDER
  5
21
  0
ENDSEC
  0
EOF
